  0
SECTION
  2
HEADER
  9
$ACADVER
  1
AC1015
  9
$ACADMAINTVER
 70
     6
  9
$DWGCODEPAGE
  3
ANSI_1254
  9
$INSBASE
 10
0.0
 20
0.0
 30
0.0
  9
$EXTMIN
 10
0.0
 20
0.0
 30
0.0
  9
$EXTMAX
 10
279.4
 20
215.9
 30
0.0
  9
$LIMMIN
 10
0.0
 20
0.0
  9
$LIMMAX
 10
279.4
 20
215.9
  9
$ORTHOMODE
 70
     0
  9
$REGENMODE
 70
     1
  9
$FILLMODE
 70
     1
  9
$QTEXTMODE
 70
     0
  9
$MIRRTEXT
 70
     1
  9
$LTSCALE
 40
1.0
  9
$ATTMODE
 70
     1
  9
$TEXTSIZE
 40
3.5
  9
$TRACEWID
 40
1.0
  9
$TEXTSTYLE
  7
Standard
  9
$CLAYER
  8
0
  9
$CELTYPE
  6
ByLayer
  9
$CECOLOR
 62
   256
  9
$CELTSCALE
 40
1.0
  9
$DISPSILH
 70
     0
  9
$DIMSCALE
 40
1.0
  9
$DIMASZ
 40
3.5
  9
$DIMEXO
 40
1.0
  9
$DIMDLI
 40
3.75
  9
$DIMRND
 40
0.0
  9
$DIMDLE
 40
0.0
  9
$DIMEXE
 40
1.0
  9
$DIMTP
 40
0.0
  9
$DIMTM
 40
0.0
  9
$DIMTXT
 40
3.5
  9
$DIMCEN
 40
2.5
  9
$DIMTSZ
 40
0.0
  9
$DIMTOL
 70
     0
  9
$DIMLIM
 70
     0
  9
$DIMTIH
 70
     1
  9
$DIMTOH
 70
     1
  9
$DIMSE1
 70
     0
  9
$DIMSE2
 70
     0
  9
$DIMTAD
 70
     1
  9
$DIMZIN
 70
     0
  9
$DIMBLK
  1

  9
$DIMASO
 70
     1
  9
$DIMSHO
 70
     1
  9
$DIMPOST
  1

  9
$DIMAPOST
  1

  9
$DIMALT
 70
     0
  9
$DIMALTD
 70
     3
  9
$DIMALTF
 40
0.0393700787
  9
$DIMLFAC
 40
1.0
  9
$DIMTOFL
 70
     1
  9
$DIMTVP
 40
0.0
  9
$DIMTIX
 70
     0
  9
$DIMSOXD
 70
     0
  9
$DIMSAH
 70
     0
  9
$DIMBLK1
  1

  9
$DIMBLK2
  1

  9
$DIMSTYLE
  2
ISO-25
  9
$DIMCLRD
 70
     0
  9
$DIMCLRE
 70
     0
  9
$DIMCLRT
 70
     0
  9
$DIMTFAC
 40
1.0
  9
$DIMGAP
 40
1.524
  9
$DIMJUST
 70
     0
  9
$DIMSD1
 70
     0
  9
$DIMSD2
 70
     0
  9
$DIMTOLJ
 70
     0
  9
$DIMTZIN
 70
     0
  9
$DIMALTZ
 70
     0
  9
$DIMALTTZ
 70
     0
  9
$DIMUPT
 70
     0
  9
$DIMDEC
 70
     2
  9
$DIMTDEC
 70
     2
  9
$DIMALTU
 70
     2
  9
$DIMALTTD
 70
     3
  9
$DIMTXSTY
  7
Standard
  9
$DIMAUNIT
 70
     0
  9
$DIMADEC
 70
     2
  9
$DIMALTRND
 40
0.0
  9
$DIMAZIN
 70
     0
  9
$DIMDSEP
 70
    44
  9
$DIMATFIT
 70
     3
  9
$DIMFRAC
 70
     0
  9
$DIMLDRBLK
  1

  9
$DIMLUNIT
 70
     2
  9
$DIMLWD
 70
    -2
  9
$DIMLWE
 70
    -2
  9
$DIMTMOVE
 70
     0
  9
$LUNITS
 70
     2
  9
$LUPREC
 70
     2
  9
$SKETCHINC
 40
1.0
  9
$FILLETRAD
 40
10.0
  9
$AUNITS
 70
     0
  9
$AUPREC
 70
     2
  9
$MENU
  1
.
  9
$ELEVATION
 40
0.0
  9
$PELEVATION
 40
0.0
  9
$THICKNESS
 40
0.0
  9
$LIMCHECK
 70
     0
  9
$CHAMFERA
 40
0.0
  9
$CHAMFERB
 40
0.0
  9
$CHAMFERC
 40
0.0
  9
$CHAMFERD
 40
0.0
  9
$SKPOLY
 70
     0
  9
$TDCREATE
 40
2459935.700509468
  9
$TDUCREATE
 40
2459935.575509468
  9
$TDUPDATE
 40
2459935.700509653
  9
$TDUUPDATE
 40
2459935.575509653
  9
$TDINDWG
 40
0.0000000116
  9
$TDUSRTIMER
 40
0.0000000116
  9
$USRTIMER
 70
     1
  9
$ANGBASE
 50
0.0
  9
$ANGDIR
 70
     0
  9
$PDMODE
 70
     0
  9
$PDSIZE
 40
-1.0
  9
$PLINEWID
 40
0.0
  9
$SPLFRAME
 70
     0
  9
$SPLINETYPE
 70
     6
  9
$SPLINESEGS
 70
     8
  9
$HANDSEED
  5
D2
  9
$SURFTAB1
 70
     6
  9
$SURFTAB2
 70
     6
  9
$SURFTYPE
 70
     6
  9
$SURFU
 70
     6
  9
$SURFV
 70
     6
  9
$UCSBASE
  2

  9
$UCSNAME
  2

  9
$UCSORG
 10
0.0
 20
0.0
 30
0.0
  9
$UCSXDIR
 10
1.0
 20
0.0
 30
0.0
  9
$UCSYDIR
 10
0.0
 20
1.0
 30
0.0
  9
$UCSORTHOREF
  2

  9
$UCSORTHOVIEW
 70
     0
  9
$UCSORGTOP
 10
0.0
 20
0.0
 30
0.0
  9
$UCSORGBOTTOM
 10
0.0
 20
0.0
 30
0.0
  9
$UCSORGLEFT
 10
0.0
 20
0.0
 30
0.0
  9
$UCSORGRIGHT
 10
0.0
 20
0.0
 30
0.0
  9
$UCSORGFRONT
 10
0.0
 20
0.0
 30
0.0
  9
$UCSORGBACK
 10
0.0
 20
0.0
 30
0.0
  9
$PUCSBASE
  2

  9
$PUCSNAME
  2

  9
$PUCSORG
 10
0.0
 20
0.0
 30
0.0
  9
$PUCSXDIR
 10
1.0
 20
0.0
 30
0.0
  9
$PUCSYDIR
 10
0.0
 20
1.0
 30
0.0
  9
$PUCSORTHOREF
  2

  9
$PUCSORTHOVIEW
 70
     0
  9
$PUCSORGTOP
 10
0.0
 20
0.0
 30
0.0
  9
$PUCSORGBOTTOM
 10
0.0
 20
0.0
 30
0.0
  9
$PUCSORGLEFT
 10
0.0
 20
0.0
 30
0.0
  9
$PUCSORGRIGHT
 10
0.0
 20
0.0
 30
0.0
  9
$PUCSORGFRONT
 10
0.0
 20
0.0
 30
0.0
  9
$PUCSORGBACK
 10
0.0
 20
0.0
 30
0.0
  9
$USERI1
 70
     0
  9
$USERI2
 70
     0
  9
$USERI3
 70
     0
  9
$USERI4
 70
     0
  9
$USERI5
 70
     0
  9
$USERR1
 40
0.0
  9
$USERR2
 40
0.0
  9
$USERR3
 40
0.0
  9
$USERR4
 40
0.0
  9
$USERR5
 40
0.0
  9
$WORLDVIEW
 70
     1
  9
$SHADEDGE
 70
     3
  9
$SHADEDIF
 70
    70
  9
$TILEMODE
 70
     1
  9
$MAXACTVP
 70
    64
  9
$PINSBASE
 10
0.0
 20
0.0
 30
0.0
  9
$PLIMCHECK
 70
     0
  9
$PEXTMIN
 10
1.0000000000E+20
 20
1.0000000000E+20
 30
1.0000000000E+20
  9
$PEXTMAX
 10
-1.0000000000E+20
 20
-1.0000000000E+20
 30
-1.0000000000E+20
  9
$PLIMMIN
 10
0.0
 20
0.0
  9
$PLIMMAX
 10
420.0
 20
297.0
  9
$UNITMODE
 70
     0
  9
$VISRETAIN
 70
     1
  9
$PLINEGEN
 70
     0
  9
$PSLTSCALE
 70
     1
  9
$TREEDEPTH
 70
  3020
  9
$CMLSTYLE
  2
Standard
  9
$CMLJUST
 70
     0
  9
$CMLSCALE
 40
20.0
  9
$PROXYGRAPHICS
 70
     1
  9
$MEASUREMENT
 70
     1
  9
$CELWEIGHT
370
    -1
  9
$ENDCAPS
280
     0
  9
$JOINSTYLE
280
     0
  9
$LWDISPLAY
290
     1
  9
$INSUNITS
 70
     4
  9
$HYPERLINKBASE
  1

  9
$STYLESHEET
  1

  9
$XEDIT
290
     1
  9
$CEPSNTYPE
380
     0
  9
$PSTYLEMODE
290
     1
  9
$FINGERPRINTGUID
  2
{f2d5e243-3424-4f8d-9324-2fcdf501a700}
  9
$VERSIONGUID
  2
{FAEB1C32-E019-11D5-929B-00C0DF256EC4}
  9
$EXTNAMES
290
     1
  9
$PSVPSCALE
 40
0.0
  9
$OLESTARTUP
290
     0
  0
ENDSEC
  0
SECTION
  2
CLASSES
  0
CLASS
  1
ACDBDICTIONARYWDFLT
  2
AcDbDictionaryWithDefault
  3
ObjectDBX Classes
 90
        0
280
     0
281
     0
  0
CLASS
  1
VISUALSTYLE
  2
AcDbVisualStyle
  3
ObjectDBX Classes
 90
     4095
280
     0
281
     0
  0
CLASS
  1
MATERIAL
  2
AcDbMaterial
  3
ObjectDBX Classes
 90
     1153
280
     0
281
     0
  0
CLASS
  1
SCALE
  2
AcDbScale
  3
ObjectDBX Classes
 90
     1153
280
     0
281
     0
  0
CLASS
  1
TABLESTYLE
  2
AcDbTableStyle
  3
ObjectDBX Classes
 90
     4095
280
     0
281
     0
  0
CLASS
  1
MLEADERSTYLE
  2
AcDbMLeaderStyle
  3
ACDB_MLEADERSTYLE_CLASS
 90
     4095
280
     0
281
     0
  0
CLASS
  1
SUN
  2
AcDbSun
  3
SCENEOE
 90
     1153
280
     0
281
     0
  0
CLASS
  1
ACDBPLACEHOLDER
  2
AcDbPlaceHolder
  3
ObjectDBX Classes
 90
        0
280
     0
281
     0
  0
CLASS
  1
LAYOUT
  2
AcDbLayout
  3
ObjectDBX Classes
 90
        0
280
     0
281
     0
  0
ENDSEC
  0
SECTION
  2
TABLES
  0
TABLE
  2
VPORT
  5
8
330
0
100
AcDbSymbolTable
 70
     1
  0
VPORT
  5
29
330
8
100
AcDbSymbolTableRecord
100
AcDbViewportTableRecord
  2
*Active
 70
     0
 10
0.0
 20
0.0
 11
1.0
 21
1.0
 12
139.7
 22
107.95
 13
0.0
 23
0.0
 14
10.0
 24
10.0
 15
10.0
 25
10.0
 16
0.0
 26
0.0
 36
1.0
 17
0.0
 27
0.0
 37
0.0
 40
215.9
 41
1.2941176471
 42
50.0
 43
0.0
 44
0.0
 50
0.0
 51
0.0
 71
     0
 72
  2000
 73
     1
 74
     3
 75
     0
 76
     0
 77
     0
 78
     0
281
     0
 65
     1
110
0.0
120
0.0
130
0.0
111
1.0
121
0.0
131
0.0
112
0.0
122
1.0
132
0.0
 79
     0
146
0.0
  0
ENDTAB
  0
TABLE
  2
LTYPE
  5
5
330
0
100
AcDbSymbolTable
 70
     6
  0
LTYPE
  5
14
330
5
100
AcDbSymbolTableRecord
100
AcDbLinetypeTableRecord
  2
ByBlock
 70
     0
  3

 72
    65
 73
     0
 40
0.0
  0
LTYPE
  5
15
330
5
100
AcDbSymbolTableRecord
100
AcDbLinetypeTableRecord
  2
ByLayer
 70
     0
  3

 72
    65
 73
     0
 40
0.0
  0
LTYPE
  5
16
330
5
100
AcDbSymbolTableRecord
100
AcDbLinetypeTableRecord
  2
Continuous
 70
     0
  3
Solid line
 72
    65
 73
     0
 40
0.0
  0
LTYPE
  5
6E
330
5
100
AcDbSymbolTableRecord
100
AcDbLinetypeTableRecord
  2
HIDDEN
 70
     0
  3
Hidden __ __ __ __ __ __ __ __ __ __ __ __ __ __
 72
    65
 73
     2
 40
1.905
 49
1.27
 74
     0
 49
-0.635
 74
     0
  0
LTYPE
  5
6F
330
5
100
AcDbSymbolTableRecord
100
AcDbLinetypeTableRecord
  2
PHANTOM
 70
     0
  3
Phantom ______  __  __  ______  __  __  ______
 72
    65
 73
     6
 40
12.7
 49
6.35
 74
     0
 49
-1.27
 74
     0
 49
1.27
 74
     0
 49
-1.27
 74
     0
 49
1.27
 74
     0
 49
-1.27
 74
     0
  0
LTYPE
  5
70
330
5
100
AcDbSymbolTableRecord
100
AcDbLinetypeTableRecord
  2
CENTER
 70
     0
  3
Center ____ _ ____ _ ____ _ ____ _ ____ _ ____
 72
    65
 73
     4
 40
10.16
 49
6.35
 74
     0
 49
-1.27
 74
     0
 49
1.27
 74
     0
 49
-1.27
 74
     0
  0
LTYPE
  5
71
330
5
100
AcDbSymbolTableRecord
100
AcDbLinetypeTableRecord
  2
CENTERX2
 70
     0
  3
Center (2x) ________  __  ________  __  _____
 72
    65
 73
     4
 40
20.32
 49
12.7
 74
     0
 49
-2.54
 74
     0
 49
2.54
 74
     0
 49
-2.54
 74
     0
  0
LTYPE
  5
72
330
5
100
AcDbSymbolTableRecord
100
AcDbLinetypeTableRecord
  2
DOT2
 70
     0
  3
Dot (.5x) ........................................
 72
    65
 73
     2
 40
0.635
 49
0.0
 74
     0
 49
-0.635
 74
     0
  0
ENDTAB
  0
TABLE
  2
LAYER
  5
2
330
0
100
AcDbSymbolTable
 70
    17
  0
LAYER
  5
10
330
2
100
AcDbSymbolTableRecord
100
AcDbLayerTableRecord
  2
0
 70
     0
 62
     7
  6
Continuous
370
    -3
390
F
  0
LAYER
  5
73
330
2
100
AcDbSymbolTableRecord
100
AcDbLayerTableRecord
  2
FORMAT
 70
     0
 62
     7
  6
Continuous
370
    -3
390
F
  0
LAYER
  5
74
330
2
100
AcDbSymbolTableRecord
100
AcDbLayerTableRecord
  2
YARDIMCI_GEOMETRI
 70
     0
 62
    -6
  6
Continuous
290
     0
370
    -3
390
F
  0
LAYER
  5
75
330
2
100
AcDbSymbolTableRecord
100
AcDbLayerTableRecord
  2
SAYFA_CERCEVESI
 70
     0
 62
     7
  6
Continuous
370
    25
390
F
  0
LAYER
  5
76
330
2
100
AcDbSymbolTableRecord
100
AcDbLayerTableRecord
  2
ANTET
 70
     0
 62
     7
  6
Continuous
370
    -3
390
F
  0
LAYER
  5
77
330
2
100
AcDbSymbolTableRecord
100
AcDbLayerTableRecord
  2
OLCU
 70
     0
 62
   150
  6
Continuous
370
    -3
390
F
  0
LAYER
  5
78
330
2
100
AcDbSymbolTableRecord
100
AcDbLayerTableRecord
  2
METIN
 70
     0
 62
    96
  6
Continuous
370
    -3
390
F
  0
LAYER
  5
79
330
2
100
AcDbSymbolTableRecord
100
AcDbLayerTableRecord
  2
BALON
 70
     0
 62
     5
  6
Continuous
370
    -3
390
F
  0
LAYER
  5
7A
330
2
100
AcDbSymbolTableRecord
100
AcDbLayerTableRecord
  2
VURGU
 70
     0
 62
     7
  6
Continuous
370
    -3
390
F
  0
LAYER
  5
7B
330
2
100
AcDbSymbolTableRecord
100
AcDbLayerTableRecord
  2
SILIK
 70
     0
 62
     7
  6
Continuous
370
    -3
390
F
  0
LAYER
  5
7C
330
2
100
AcDbSymbolTableRecord
100
AcDbLayerTableRecord
  2
MODEL
 70
     0
 62
     7
  6
Continuous
370
    -3
390
F
  0
LAYER
  5
7D
330
2
100
AcDbSymbolTableRecord
100
AcDbLayerTableRecord
  2
DETAYLANDıRMA
 70
     0
 62
   190
  6
Continuous
370
    -3
390
F
  0
LAYER
  5
7E
330
2
100
AcDbSymbolTableRecord
100
AcDbLayerTableRecord
  2
TOLERANS
 70
     0
 62
   230
  6
Continuous
370
    -3
390
F
  0
LAYER
  5
7F
330
2
100
AcDbSymbolTableRecord
100
AcDbLayerTableRecord
  2
MERKEZ_CIZGILERI
 70
     0
 62
    30
  6
Continuous
370
    -3
390
F
  0
LAYER
  5
80
330
2
100
AcDbSymbolTableRecord
100
AcDbLayerTableRecord
  2
KESIT-DETAY_CIZGILERI
 70
     0
 62
     7
  6
Continuous
370
    -3
390
F
  0
LAYER
  5
81
330
2
100
AcDbSymbolTableRecord
100
AcDbLayerTableRecord
  2
\U+041E\U+0421\U+0415\U+0412\U+042B\U+0415
 70
     0
 62
     7
  6
Continuous
370
    -3
390
F
  0
LAYER
  5
82
330
2
100
AcDbSymbolTableRecord
100
AcDbLayerTableRecord
  2
\U+0412\U+041E\U+0414\U+042F\U+041D\U+042B\U+0415_\U+0417\U+041D\U+0410\U+041A\U+0418
 70
     0
 62
    11
  6
Continuous
370
    -3
390
F
  0
ENDTAB
  0
TABLE
  2
STYLE
  5
3
330
0
100
AcDbSymbolTable
 70
     1
  0
STYLE
  5
11
330
3
100
AcDbSymbolTableRecord
100
AcDbTextStyleTableRecord
  2
Standard
 70
     0
 40
0.0
 41
1.0
 50
0.0
 71
     0
 42
3.5
  3
txt
  4

  0
ENDTAB
  0
TABLE
  2
VIEW
  5
6
330
0
100
AcDbSymbolTable
 70
     0
  0
ENDTAB
  0
TABLE
  2
UCS
  5
7
330
0
100
AcDbSymbolTable
 70
     0
  0
ENDTAB
  0
TABLE
  2
APPID
  5
9
330
0
100
AcDbSymbolTable
 70
     1
  0
APPID
  5
12
330
9
100
AcDbSymbolTableRecord
100
AcDbRegAppTableRecord
  2
ACAD
 70
     0
  0
ENDTAB
  0
TABLE
  2
DIMSTYLE
  5
A
330
0
100
AcDbSymbolTable
 70
     1
100
AcDbDimStyleTable
  0
DIMSTYLE
105
27
330
A
100
AcDbSymbolTableRecord
100
AcDbDimStyleTableRecord
  2
ISO-25
 70
     0
 41
2.5
 42
0.625
 43
3.75
 44
1.25
 73
     0
 74
     0
 77
     1
 78
     8
140
2.5
141
2.5
143
0.0393700787
147
0.625
171
     3
172
     1
178
     0
271
     2
272
     2
274
     3
278
    44
283
     0
284
     8
340
11
  0
ENDTAB
  0
TABLE
  2
BLOCK_RECORD
  5
1
330
0
100
AcDbSymbolTable
 70
     3
  0
BLOCK_RECORD
  5
1F
330
1
100
AcDbSymbolTableRecord
100
AcDbBlockTableRecord
  2
*Model_Space
340
22
  0
BLOCK_RECORD
  5
1B
330
1
100
AcDbSymbolTableRecord
100
AcDbBlockTableRecord
  2
*Paper_Space
340
1E
  0
BLOCK_RECORD
  5
23
330
1
100
AcDbSymbolTableRecord
100
AcDbBlockTableRecord
  2
*Paper_Space0
340
26
  0
BLOCK_RECORD
  5
88
330
1
100
AcDbSymbolTableRecord
100
AcDbBlockTableRecord
  2
SW_CENTERMARKSYMBOL_0
340
0
102
{BLKREFS
331
93
102
}
  0
BLOCK_RECORD
  5
BB
330
1
100
AcDbSymbolTableRecord
100
AcDbBlockTableRecord
  2
SW_CENTERMARKSYMBOL_1
340
0
102
{BLKREFS
331
C6
102
}
  0
ENDTAB
  0
ENDSEC
  0
SECTION
  2
BLOCKS
  0
BLOCK
  5
20
330
1F
100
AcDbEntity
  8
0
100
AcDbBlockBegin
  2
*Model_Space
 70
     0
 10
0.0
 20
0.0
 30
0.0
  3
*Model_Space
  1

  0
ENDBLK
  5
21
330
1F
100
AcDbEntity
  8
0
100
AcDbBlockEnd
  0
BLOCK
  5
1C
330
1B
100
AcDbEntity
 67
     1
  8
0
100
AcDbBlockBegin
  2
*Paper_Space
 70
     0
 10
0.0
 20
0.0
 30
0.0
  3
*Paper_Space
  1

  0
ENDBLK
  5
1D
330
1B
100
AcDbEntity
 67
     1
  8
0
100
AcDbBlockEnd
  0
BLOCK
  5
24
330
23
100
AcDbEntity
  8
0
100
AcDbBlockBegin
  2
*Paper_Space0
 70
     0
 10
0.0
 20
0.0
 30
0.0
  3
*Paper_Space0
  1

  0
ENDBLK
  5
25
330
23
100
AcDbEntity
  8
0
100
AcDbBlockEnd
  0
BLOCK
  5
89
330
88
100
AcDbEntity
  8
0
100
AcDbBlockBegin
  2
SW_CENTERMARKSYMBOL_0
 70
     0
 10
0.0
 20
0.0
 30
0.0
  3
SW_CENTERMARKSYMBOL_0
  1

  0
LINE
  5
8B
330
88
100
AcDbEntity
  8
FORMAT
 62
     0
100
AcDbLine
 10
0.0
 20
0.0
 30
0.0
 11
0.0
 21
2.5
 31
0.0
  0
LINE
  5
8C
330
88
100
AcDbEntity
  8
FORMAT
 62
     0
100
AcDbLine
 10
0.0
 20
0.0
 30
0.0
 11
-2.5
 21
0.0
 31
0.0
  0
LINE
  5
8D
330
88
100
AcDbEntity
  8
FORMAT
 62
     0
100
AcDbLine
 10
0.0
 20
0.0
 30
0.0
 11
0.0
 21
-2.5
 31
0.0
  0
LINE
  5
8E
330
88
100
AcDbEntity
  8
FORMAT
 62
     0
100
AcDbLine
 10
0.0
 20
0.0
 30
0.0
 11
2.5
 21
0.0
 31
0.0
  0
LINE
  5
8F
330
88
100
AcDbEntity
  8
FORMAT
 62
     0
100
AcDbLine
 10
0.0
 20
5.0
 30
0.0
 11
0.0
 21
57.5
 31
0.0
  0
LINE
  5
90
330
88
100
AcDbEntity
  8
FORMAT
 62
     0
100
AcDbLine
 10
-5.0
 20
0.0
 30
0.0
 11
-57.5
 21
0.0
 31
0.0
  0
LINE
  5
91
330
88
100
AcDbEntity
  8
FORMAT
 62
     0
100
AcDbLine
 10
0.0
 20
-5.0
 30
0.0
 11
0.0
 21
-57.5
 31
0.0
  0
LINE
  5
92
330
88
100
AcDbEntity
  8
FORMAT
 62
     0
100
AcDbLine
 10
5.0
 20
0.0
 30
0.0
 11
57.5
 21
0.0
 31
0.0
  0
ENDBLK
  5
8A
330
88
100
AcDbEntity
  8
0
100
AcDbBlockEnd
  0
BLOCK
  5
BC
330
BB
100
AcDbEntity
  8
0
100
AcDbBlockBegin
  2
SW_CENTERMARKSYMBOL_1
 70
     0
 10
0.0
 20
0.0
 30
0.0
  3
SW_CENTERMARKSYMBOL_1
  1

  0
LINE
  5
BE
330
BB
100
AcDbEntity
  8
FORMAT
 62
     0
100
AcDbLine
 10
0.0
 20
0.0
 30
0.0
 11
0.0
 21
2.5
 31
0.0
  0
LINE
  5
BF
330
BB
100
AcDbEntity
  8
FORMAT
 62
     0
100
AcDbLine
 10
0.0
 20
0.0
 30
0.0
 11
-2.5
 21
0.0
 31
0.0
  0
LINE
  5
C0
330
BB
100
AcDbEntity
  8
FORMAT
 62
     0
100
AcDbLine
 10
0.0
 20
0.0
 30
0.0
 11
0.0
 21
-2.5
 31
0.0
  0
LINE
  5
C1
330
BB
100
AcDbEntity
  8
FORMAT
 62
     0
100
AcDbLine
 10
0.0
 20
0.0
 30
0.0
 11
2.5
 21
0.0
 31
0.0
  0
LINE
  5
C2
330
BB
100
AcDbEntity
  8
FORMAT
 62
     0
100
AcDbLine
 10
0.0
 20
5.0
 30
0.0
 11
0.0
 21
57.5
 31
0.0
  0
LINE
  5
C3
330
BB
100
AcDbEntity
  8
FORMAT
 62
     0
100
AcDbLine
 10
-5.0
 20
0.0
 30
0.0
 11
-57.5
 21
0.0
 31
0.0
  0
LINE
  5
C4
330
BB
100
AcDbEntity
  8
FORMAT
 62
     0
100
AcDbLine
 10
0.0
 20
-5.0
 30
0.0
 11
0.0
 21
-57.5
 31
0.0
  0
LINE
  5
C5
330
BB
100
AcDbEntity
  8
FORMAT
 62
     0
100
AcDbLine
 10
5.0
 20
0.0
 30
0.0
 11
57.5
 21
0.0
 31
0.0
  0
ENDBLK
  5
BD
330
BB
100
AcDbEntity
  8
0
100
AcDbBlockEnd
  0
ENDSEC
  0
SECTION
  2
ENTITIES
  0
LINE
  5
83
330
1F
100
AcDbEntity
  8
0
  6
Continuous
 62
     7
370
    25
100
AcDbLine
 10
92.8583123737
 20
47.9531268149
 30
0.0
 11
254.8583123737
 21
47.9531268149
 31
0.0
  0
LINE
  5
84
330
1F
100
AcDbEntity
  8
0
  6
Continuous
 62
     7
370
    25
100
AcDbLine
 10
254.8583123737
 20
157.9531268149
 30
0.0
 11
92.8583123737
 21
157.9531268149
 31
0.0
  0
CIRCLE
  5
85
330
1F
100
AcDbEntity
  8
0
  6
Continuous
 62
     7
370
    25
100
AcDbCircle
 10
92.8583123737
 20
102.9531268149
 30
0.0
 40
48.40000000000001
  0
CIRCLE
  5
86
330
1F
100
AcDbEntity
  8
0
  6
Continuous
 62
     7
370
    25
100
AcDbCircle
 10
92.8583123737
 20
102.9531268149
 30
0.0
 40
55.0
  0
LINE
  5
87
330
1F
100
AcDbEntity
  8
0
  6
Continuous
 62
     7
370
    25
100
AcDbLine
 10
254.8583123737
 20
157.9531268149
 30
0.0
 11
254.8583123737
 21
47.9531268149
 31
0.0
  0
INSERT
  5
93
330
1F
100
AcDbEntity
  8
FORMAT
100
AcDbBlockReference
  2
SW_CENTERMARKSYMBOL_0
 10
92.8583123737
 20
102.9531268149
 30
0.0
  0
LINE
  5
94
330
1F
100
AcDbEntity
  8
0
  6
Continuous
 62
     7
370
    25
100
AcDbLine
 10
147.8583123737
 20
420.70489717
 30
0.0
 11
147.8583123737
 21
529.20489717
 31
0.0
  0
LINE
  5
95
330
1F
100
AcDbEntity
  8
0
  6
Continuous
 62
     7
370
    25
100
AcDbLine
 10
147.8583123737
 20
202.20489717
 30
0.0
 11
147.8583123737
 21
310.70489717
 31
0.0
  0
LINE
  5
96
330
1F
100
AcDbEntity
  8
0
  6
Continuous
 62
     7
370
    25
100
AcDbLine
 10
37.8583123737
 20
529.20489717
 30
0.0
 11
37.8583123737
 21
202.20489717
 31
0.0
  0
LINE
  5
97
330
1F
100
AcDbEntity
  8
0
  6
Continuous
 62
     7
370
    25
100
AcDbLine
 10
147.8583123737
 20
310.70489717
 30
0.0
 11
254.8583123737
 21
310.70489717
 31
0.0
  0
LINE
  5
98
330
1F
100
AcDbEntity
  8
0
  6
Continuous
 62
     7
370
    25
100
AcDbLine
 10
254.8583123737
 20
420.70489717
 30
0.0
 11
147.8583123737
 21
420.70489717
 31
0.0
  0
LINE
  5
99
330
1F
100
AcDbEntity
  8
0
  6
Continuous
 62
     7
370
    25
100
AcDbLine
 10
147.8583123737
 20
420.70489717
 30
0.0
 11
92.8583123737
 21
365.70489717
 31
0.0
  0
LINE
  5
9A
330
1F
100
AcDbEntity
  8
0
  6
Continuous
 62
     7
370
    25
100
AcDbLine
 10
92.8583123737
 20
365.70489717
 30
0.0
 11
147.8583123737
 21
310.70489717
 31
0.0
  0
LINE
  5
9B
330
1F
100
AcDbEntity
  8
0
  6
Continuous
 62
     7
370
    25
100
AcDbLine
 10
37.8583123737
 20
529.20489717
 30
0.0
 11
147.8583123737
 21
529.20489717
 31
0.0
  0
LINE
  5
9C
330
1F
100
AcDbEntity
  8
0
  6
Continuous
 62
     7
370
    25
100
AcDbLine
 10
37.8583123737
 20
202.20489717
 30
0.0
 11
147.8583123737
 21
202.20489717
 31
0.0
  0
LINE
  5
9D
330
1F
100
AcDbEntity
  8
0
  6
Continuous
 62
     7
370
    25
100
AcDbLine
 10
254.8583123737
 20
420.70489717
 30
0.0
 11
254.8583123737
 21
310.70489717
 31
0.0
  0
LINE
  5
9E
330
1F
100
AcDbEntity
  8
0
  6
Continuous
 62
     7
370
    25
100
AcDbLine
 10
484.2407505682
 20
47.9531268149
 30
0.0
 11
647.7407505682
 21
47.9531268149
 31
0.0
  0
LINE
  5
9F
330
1F
100
AcDbEntity
  8
0
  6
Continuous
 62
     7
370
    25
100
AcDbLine
 10
320.7407505682
 20
47.9531268149
 30
0.0
 11
484.2407505682
 21
47.9531268149
 31
0.0
  0
LINE
  5
A0
330
1F
100
AcDbEntity
  8
0
  6
Continuous
 62
     7
370
    25
100
AcDbLine
 10
484.2407505682
 20
157.9531268149
 30
0.0
 11
320.7407505682
 21
157.9531268149
 31
0.0
  0
LINE
  5
A1
330
1F
100
AcDbEntity
  8
0
  6
Continuous
 62
     7
370
    25
100
AcDbLine
 10
647.7407505682
 20
157.9531268149
 30
0.0
 11
484.2407505682
 21
157.9531268149
 31
0.0
  0
LINE
  5
A2
330
1F
100
AcDbEntity
  8
0
  6
Continuous
 62
     7
370
    25
100
AcDbLine
 10
647.7407505682
 20
157.9531268149
 30
0.0
 11
647.7407505682
 21
47.9531268149
 31
0.0
  0
LINE
  5
A3
330
1F
100
AcDbEntity
  8
0
  6
Continuous
 62
     7
370
    25
100
AcDbLine
 10
320.7407505682
 20
157.9531268149
 30
0.0
 11
320.7407505682
 21
47.9531268149
 31
0.0
  0
LINE
  5
A4
330
1F
100
AcDbEntity
  8
0
  6
Continuous
 62
     7
370
    25
100
AcDbLine
 10
461.7328758987
 20
-103.4364021857
 30
0.0
 11
373.6186823222
 21
-52.5691609737
 31
0.0
  0
LINE
  5
A5
330
1F
100
AcDbEntity
  8
0
  6
Continuous
 62
     7
370
    25
100
AcDbLine
 10
604.8425997702
 20
-186.0518872567
 30
0.0
 11
571.7418160353
 21
-166.9432115461
 31
0.0
  0
LINE
  5
A6
330
1F
100
AcDbEntity
  8
0
  6
Continuous
 62
     7
370
    25
100
AcDbLine
 10
318.6231520272
 20
-147.8345358355
 30
0.0
 11
549.8470694752
 21
-281.3172621186
 31
0.0
  0
LINE
  5
A7
330
1F
100
AcDbEntity
  8
0
  6
Continuous
 62
     7
370
    25
100
AcDbLine
 10
516.7284061937
 20
-198.7017770476
 30
0.0
 11
603.7819395984
 21
-148.4468419194
 31
0.0
  0
LINE
  5
A8
330
1F
100
AcDbEntity
  8
0
  6
Continuous
 62
     7
370
    25
100
AcDbLine
 10
548.7864093034
 20
-53.1814670575
 30
0.0
 11
461.7328758987
 21
-103.4364021857
 31
0.0
  0
LINE
  5
A9
330
1F
100
AcDbEntity
  8
0
  6
Continuous
 62
     7
370
    25
100
AcDbLine
 10
461.7328758987
 20
-103.4364021857
 30
0.0
 11
461.7328758987
 21
-211.8529561998
 31
0.0
  0
ELLIPSE
  5
AA
330
1F
100
AcDbEntity
  8
0
  6
Continuous
 62
     7
370
    25
100
AcDbEllipse
 10
461.7328758987
 20
-166.9432115461
 30
0.0
 11
77.78174593052023
 21
1.136868377216160E-13
 31
0.0
210
0.0
220
0.0
230
1.0
 40
0.5773815452
 41
4.712388980384698
 42
5.49770587972005
  0
LWPOLYLINE
  5
AB
330
1F
100
AcDbEntity
  8
0
  6
Continuous
 62
     7
370
    25
100
AcDbPolyline
 90
       89
 70
   128
 43
0.0
 10
385.01179014
 20
-77.7506253295
 10
384.9127006529
 20
-74.6040039715
 10
384.6159371292
 20
-71.5878233611
 10
384.1230118076
 20
-68.7174532635
 10
383.4364365226
 20
-66.0075204266
 10
382.5597099045
 20
-63.471834047
 10
381.4972995512
 20
-61.1233154014
 10
380.2546192622
 20
-58.9739320023
 10
378.8380014516
 20
-57.034636615
 10
377.2546648789
 20
-55.3153114441
 10
375.5126778645
 20
-53.8247177766
 10
373.6209171747
 20
-52.5704513363
 10
371.5890227885
 20
-51.5589035773
 10
369.4273487739
 20
-50.7952291151
 10
367.1469105262
 20
-50.2833194599
 10
364.759328636
 20
-50.0257831858
 10
362.2767696732
 20
-50.0239326387
 10
359.7118841894
 20
-50.2777772486
 10
357.077742253
 20
-50.7860234814
 10
354.3877668475
 20
-51.5460814309
 10
351.6556654711
 20
-52.554078016
 10
348.895360286
 20
-53.8048767171
 10
346.1209171747
 20
-55.2921037509
 10
343.3464740635
 20
-57.0081805492
 10
340.5861688783
 20
-58.9443623779
 10
337.8540675019
 20
-61.0907828984
 10
335.1640920964
 20
-63.4365044437
 10
332.52995016
 20
-65.9695737544
 10
329.9650646762
 20
-68.67708289
 10
327.4825057134
 20
-71.5452350046
 10
325.0949238232
 20
-74.5594146523
 10
322.8144855755
 20
-77.7042622647
 10
320.6528115609
 20
-80.9637524191
 10
318.6209171747
 20
-84.321275501
 10
316.7291564849
 20
-87.7597223421
 10
314.9871694705
 20
-91.2615714057
 10
313.4038328978
 20
-94.8089780716
 10
311.9872150872
 20
-98.3838655686
 10
310.7445347982
 20
-101.9680170893
 10
309.6821244449
 20
-105.5431686193
 10
308.8053978268
 20
-109.0911020059
 10
308.1188225418
 20
-112.5937377936
 10
307.6258972202
 20
-116.0332273535
 10
307.3291336965
 20
-119.3920438352
 10
307.2300442094
 20
-122.6530714797
 10
307.3291336965
 20
-125.7996928378
 10
307.6258972202
 20
-128.8158734481
 10
308.1188225418
 20
-131.6862435458
 10
308.8053978268
 20
-134.3961763826
 10
309.6821244449
 20
-136.9318627622
 10
310.7445347982
 20
-139.2803814078
 10
311.9872150872
 20
-141.4297648069
 10
313.4038328978
 20
-143.3690601942
 10
314.9871694705
 20
-145.0883853651
 10
316.7291564849
 20
-146.5789790326
 10
318.6209171747
 20
-147.833245473
 10
320.6528115609
 20
-148.844793232
 10
322.8144855755
 20
-149.6084676941
 10
325.0949238232
 20
-150.1203773493
 10
327.4825057134
 20
-150.3779136234
 10
329.9650646762
 20
-150.3797641705
 10
332.52995016
 20
-150.1259195607
 10
335.1640920964
 20
-149.6176733278
 10
337.8540675019
 20
-148.8576153783
 10
340.5861688783
 20
-147.8496187932
 10
343.3464740635
 20
-146.5988200921
 10
346.1209171747
 20
-145.1115930583
 10
348.895360286
 20
-143.3955162601
 10
351.6556654711
 20
-141.4593344313
 10
354.3877668475
 20
-139.3129139108
 10
357.077742253
 20
-136.9671923655
 10
359.7118841894
 20
-134.4341230548
 10
362.2767696732
 20
-131.7266139192
 10
364.759328636
 20
-128.8584618046
 10
367.1469105262
 20
-125.8442821569
 10
369.4273487739
 20
-122.6994345445
 10
371.5890227885
 20
-119.4399443901
 10
373.6209171747
 20
-116.0824213083
 10
375.5126778645
 20
-112.6439744671
 10
377.2546648789
 20
-109.1421254035
 10
378.8380014516
 20
-105.5947187376
 10
380.2546192622
 20
-102.0198312406
 10
381.4972995512
 20
-98.4356797199
 10
382.5597099045
 20
-94.8605281899
 10
383.4364365226
 20
-91.3125948034
 10
384.1230118076
 20
-87.8099590156
 10
384.6159371292
 20
-84.3704694557
 10
384.9127006529
 20
-81.011652974
 10
385.01179014
 20
-77.7506253295
  0
LWPOLYLINE
  5
AC
330
1F
100
AcDbEntity
  8
0
  6
Continuous
 62
     7
370
    25
100
AcDbPolyline
 90
       13
 70
   128
 43
0.0
 10
616.235707588
 20
-211.2333516125
 10
616.1366181009
 20
-208.0867302545
 10
615.8398545772
 20
-205.0705496441
 10
615.3469292556
 20
-202.2001795465
 10
614.6603539706
 20
-199.4902467096
 10
613.7836273525
 20
-196.9545603301
 10
612.7212169992
 20
-194.6060416844
 10
611.4785367102
 20
-192.4566582853
 10
610.0619188996
 20
-190.517362898
 10
608.4785823269
 20
-188.7980377271
 10
606.7365953125
 20
-187.3074440596
 10
604.8448346227
 20
-186.0531776193
 10
604.8425997702
 20
-186.0518872567
  0
LWPOLYLINE
  5
AD
330
1F
100
AcDbEntity
  8
0
  6
Continuous
 62
     7
370
    25
100
AcDbPolyline
 90
       34
 70
   128
 43
0.0
 10
549.8470694752
 20
-281.3172621186
 10
551.8767290089
 20
-282.327519515
 10
554.0384030235
 20
-283.0911939771
 10
556.3188412712
 20
-283.6031036323
 10
558.7064231614
 20
-283.8606399064
 10
561.1889821242
 20
-283.8624904535
 10
563.753867608
 20
-283.6086458437
 10
566.3880095444
 20
-283.1003996109
 10
569.0779849499
 20
-282.3403416613
 10
571.8100863263
 20
-281.3323450762
 10
574.5703915115
 20
-280.0815463751
 10
577.3448346227
 20
-278.5943193413
 10
580.119277734
 20
-276.8782425431
 10
582.8795829191
 20
-274.9420607143
 10
585.6116842955
 20
-272.7956401938
 10
588.301659701
 20
-270.4499186485
 10
590.9358016374
 20
-267.9168493378
 10
593.5006871212
 20
-265.2093402022
 10
595.983246084
 20
-262.3411880876
 10
598.3708279742
 20
-259.3270084399
 10
600.6512662219
 20
-256.1821608275
 10
602.8129402365
 20
-252.9226706731
 10
604.8448346227
 20
-249.5651475913
 10
606.7365953125
 20
-246.1267007501
 10
608.4785823269
 20
-242.6248516865
 10
610.0619188996
 20
-239.0774450206
 10
611.4785367102
 20
-235.5025575236
 10
612.7212169992
 20
-231.9184060029
 10
613.7836273525
 20
-228.3432544729
 10
614.6603539706
 20
-224.7953210864
 10
615.3469292556
 20
-221.2926852986
 10
615.8398545772
 20
-217.8531957387
 10
616.1366181009
 20
-214.494379257
 10
616.235707588
 20
-211.2333516125
  0
LWPOLYLINE
  5
AE
330
1F
100
AcDbEntity
  8
0
  6
Continuous
 62
     7
370
    25
100
AcDbPolyline
 90
       83
 70
   128
 43
0.0
 10
380.3448853841
 20
-80.4447720985
 10
380.2444654571
 20
-77.4774727779
 10
379.9437949802
 20
-74.6435291294
 10
379.4446384072
 20
-71.9595718612
 10
378.7499249874
 20
-69.4413515019
 10
377.8637315754
 20
-67.1036459697
 10
376.7912587065
 20
-64.9601738504
 10
375.538800078
 20
-63.0235138906
 10
374.1137056151
 20
-61.305031181
 10
372.5243383388
 20
-59.8148104615
 10
370.7800252883
 20
-58.5615969399
 10
368.8910027861
 20
-57.5527449714
 10
366.8683563674
 20
-56.7941749005
 10
364.7239557256
 20
-56.290338318
 10
362.4703850565
 20
-56.0441919374
 10
360.1208692087
 20
-56.0571802434
 10
357.6891960756
 20
-56.3292270156
 10
355.189635682
 20
-56.8587357752
 10
352.6368564421
 20
-57.6425991544
 10
350.0458390797
 20
-58.6762171311
 10
347.4317887148
 20
-59.9535240241
 10
344.8100456346
 20
-61.4670240886
 10
342.1959952697
 20
-63.2078355044
 10
339.6049779073
 20
-65.165742498
 10
337.0521986674
 20
-67.3292552924
 10
334.5526382738
 20
-69.6856775345
 10
332.1209651407
 20
-72.2211808015
 10
329.7714492929
 20
-74.920885752
 10
327.5178786238
 20
-77.7689494438
 10
325.373477982
 20
-80.7486583068
 10
323.3508315633
 20
-83.8425262246
 10
321.4618090611
 20
-87.0323971498
 10
319.7174960106
 20
-90.2995516517
 10
318.1281287343
 20
-93.6248167683
 10
316.7030342714
 20
-96.9886785219
 10
315.4505756429
 20
-100.371396434
 10
314.378102774
 20
-103.7531193708
 10
313.491909362
 20
-107.1140020375
 10
312.7971959422
 20
-110.4343214382
 10
312.2980393692
 20
-113.6945926183
 10
311.9973688923
 20
-116.8756830103
 10
311.8969489653
 20
-119.9589247107
 10
311.9973688923
 20
-122.9262240313
 10
312.2980393692
 20
-125.7601676798
 10
312.7971959422
 20
-128.444124948
 10
313.491909362
 20
-130.9623453073
 10
314.378102774
 20
-133.3000508395
 10
315.4505756429
 20
-135.4435229588
 10
316.7030342714
 20
-137.3801829186
 10
318.1281287343
 20
-139.0986656282
 10
319.7174960106
 20
-140.5888863477
 10
321.4618090611
 20
-141.8420998693
 10
323.3508315633
 20
-142.8509518378
 10
325.373477982
 20
-143.6095219087
 10
327.5178786238
 20
-144.1133584912
 10
329.7714492929
 20
-144.3595048718
 10
332.1209651407
 20
-144.3465165658
 10
334.5526382738
 20
-144.0744697936
 10
337.0521986674
 20
-143.544961034
 10
339.6049779073
 20
-142.7610976548
 10
342.1959952697
 20
-141.7274796781
 10
344.8100456346
 20
-140.4501727851
 10
347.4317887148
 20
-138.9366727206
 10
350.0458390797
 20
-137.1958613048
 10
352.6368564421
 20
-135.2379543113
 10
355.189635682
 20
-133.0744415168
 10
357.6891960756
 20
-130.7180192747
 10
360.1208692087
 20
-128.1825160077
 10
362.4703850565
 20
-125.4828110573
 10
364.7239557256
 20
-122.6347473654
 10
366.8683563674
 20
-119.6550385024
 10
368.8910027861
 20
-116.5611705847
 10
370.7800252883
 20
-113.3712996594
 10
372.5243383388
 20
-110.1041451575
 10
374.1137056151
 20
-106.7788800409
 10
375.538800078
 20
-103.4150182873
 10
376.7912587065
 20
-100.0323003752
 10
377.8637315754
 20
-96.6505774384
 10
378.7499249874
 20
-93.2896947717
 10
379.4446384072
 20
-89.969375371
 10
379.9437949802
 20
-86.7091041909
 10
380.2444654571
 20
-83.5280137989
 10
380.3448853841
 20
-80.4447720985
  0
LWPOLYLINE
  5
AF
330
1F
100
AcDbEntity
  8
0
  6
Continuous
 62
     7
370
    25
100
AcDbPolyline
 90
       89
 70
   128
 43
0.0
 10
615.1750474162
 20
-123.2653775636
 10
615.0759579292
 20
-120.0043499191
 10
614.7791944054
 20
-116.6455334374
 10
614.2862690838
 20
-113.2060438775
 10
613.5996937988
 20
-109.7034080897
 10
612.7229671807
 20
-106.1554747032
 10
611.6605568274
 20
-102.5803231732
 10
610.4178765385
 20
-98.9961716524
 10
609.0012587278
 20
-95.4212841555
 10
607.4179221552
 20
-91.8738774896
 10
605.6759351407
 20
-88.372028426
 10
603.7841744509
 20
-84.9335815848
 10
601.7522800647
 20
-81.576058503
 10
599.5906060501
 20
-78.3165683486
 10
597.3101678024
 20
-75.1717207362
 10
594.9225859122
 20
-72.1575410885
 10
592.4400269494
 20
-69.2893889739
 10
589.8751414656
 20
-66.5818798383
 10
587.2409995292
 20
-64.0488105276
 10
584.5510241238
 20
-61.7030889823
 10
581.8189227473
 20
-59.5566684618
 10
579.0586175622
 20
-57.620486633
 10
576.2841744509
 20
-55.9044098348
 10
573.5097313397
 20
-54.417182801
 10
570.7494261546
 20
-53.1663840999
 10
568.0173247781
 20
-52.1583875147
 10
565.3273493726
 20
-51.3983295652
 10
562.6932074362
 20
-50.8900833324
 10
560.1283219524
 20
-50.6362387226
 10
557.6457629897
 20
-50.6380892697
 10
555.2581810994
 20
-50.8956255438
 10
552.9777428517
 20
-51.407535199
 10
550.8160688371
 20
-52.1712096611
 10
548.7841744509
 20
-53.1827574201
 10
546.8924137612
 20
-54.4370238605
 10
545.1504267467
 20
-55.9276175279
 10
543.567090174
 20
-57.6469426988
 10
542.1504723634
 20
-59.5862380862
 10
540.9077920745
 20
-61.7356214853
 10
539.8453817211
 20
-64.0841401309
 10
538.968655103
 20
-66.6198265105
 10
538.282079818
 20
-69.3297593473
 10
537.7891544964
 20
-72.200129445
 10
537.4923909727
 20
-75.2163100553
 10
537.3933014857
 20
-78.3629314134
 10
537.4923909727
 20
-81.6239590579
 10
537.7891544964
 20
-84.9827755396
 10
538.282079818
 20
-88.4222650995
 10
538.968655103
 20
-91.9249008872
 10
539.8453817211
 20
-95.4728342737
 10
540.9077920745
 20
-99.0479858037
 10
542.1504723634
 20
-102.6321373245
 10
543.567090174
 20
-106.2070248215
 10
545.1504267467
 20
-109.7544314873
 10
546.8924137612
 20
-113.2562805509
 10
548.7841744509
 20
-116.6947273921
 10
550.8160688371
 20
-120.0522504739
 10
552.9777428517
 20
-123.3117406284
 10
555.2581810994
 20
-126.4565882407
 10
557.6457629897
 20
-129.4707678885
 10
560.1283219524
 20
-132.338920003
 10
562.6932074362
 20
-135.0464291386
 10
565.3273493726
 20
-137.5794984494
 10
568.0173247781
 20
-139.9252199946
 10
570.7494261546
 20
-142.0716405151
 10
573.5097313397
 20
-144.0078223439
 10
576.2841744509
 20
-145.7238991422
 10
579.0586175622
 20
-147.2111261759
 10
581.8189227473
 20
-148.4619248771
 10
584.5510241238
 20
-149.4699214622
 10
587.2409995292
 20
-150.2299794117
 10
589.8751414656
 20
-150.7382256445
 10
592.4400269494
 20
-150.9920702544
 10
594.9225859122
 20
-150.9902197073
 10
597.3101678024
 20
-150.7326834332
 10
599.5906060501
 20
-150.2207737779
 10
601.7522800647
 20
-149.4570993158
 10
603.7841744509
 20
-148.4455515568
 10
605.6759351407
 20
-147.1912851165
 10
607.4179221552
 20
-145.700691449
 10
609.0012587278
 20
-143.9813662781
 10
610.4178765385
 20
-142.0420708907
 10
611.6605568274
 20
-139.8926874917
 10
612.7229671807
 20
-137.544168846
 10
613.5996937988
 20
-135.0084824665
 10
614.2862690838
 20
-132.2985496296
 10
614.7791944054
 20
-129.428179532
 10
615.0759579292
 20
-126.4119989216
 10
615.1750474162
 20
-123.2653775636
  0
LWPOLYLINE
  5
B0
330
1F
100
AcDbEntity
  8
0
  6
Continuous
 62
     7
370
    25
100
AcDbPolyline
 90
       83
 70
   128
 43
0.0
 10
610.5081426604
 20
-120.5712307946
 10
610.4077227333
 20
-117.4879890942
 10
610.1070522564
 20
-114.3068987022
 10
609.6078956834
 20
-111.046627522
 10
608.9131822636
 20
-107.7263081214
 10
608.0269888516
 20
-104.3654254547
 10
606.9545159827
 20
-100.9837025178
 10
605.7020573542
 20
-97.6009846058
 10
604.2769628914
 20
-94.2371228522
 10
602.6875956151
 20
-90.9118577355
 10
600.9432825645
 20
-87.6447032337
 10
599.0542600623
 20
-84.4548323084
 10
597.0316136436
 20
-81.3609643907
 10
594.8872130018
 20
-78.3812555277
 10
592.6336423327
 20
-75.5331918358
 10
590.284126485
 20
-72.8334868853
 10
587.8524533518
 20
-70.2979836184
 10
585.3528929582
 20
-67.9415613763
 10
582.8001137183
 20
-65.7780485818
 10
580.2090963559
 20
-63.8201415883
 10
577.5950459911
 20
-62.0793301725
 10
574.9733029108
 20
-60.565830108
 10
572.3592525459
 20
-59.288523215
 10
569.7682351835
 20
-58.2549052383
 10
567.2154559437
 20
-57.4710418591
 10
564.71589555
 20
-56.9415330994
 10
562.2842224169
 20
-56.6694863273
 10
559.9347065691
 20
-56.6564980212
 10
557.6811359
 20
-56.9026444019
 10
555.5367352583
 20
-57.4064809844
 10
553.5140888395
 20
-58.1650510552
 10
551.6250663373
 20
-59.1739030238
 10
549.8807532868
 20
-60.4271165454
 10
548.2913860105
 20
-61.9173372649
 10
546.8662915476
 20
-63.6358199744
 10
545.6138329191
 20
-65.5724799343
 10
544.5413600502
 20
-67.7159520536
 10
543.6551666383
 20
-70.0536575858
 10
542.9604532185
 20
-72.5718779451
 10
542.4612966455
 20
-75.2558352133
 10
542.1606261685
 20
-78.0897788618
 10
542.0602062415
 20
-81.0570781824
 10
542.1606261685
 20
-84.1403198828
 10
542.4612966455
 20
-87.3214102748
 10
542.9604532185
 20
-90.5816814549
 10
543.6551666383
 20
-93.9020008556
 10
544.5413600502
 20
-97.2628835223
 10
545.6138329191
 20
-100.6446064591
 10
546.8662915476
 20
-104.0273243712
 10
548.2913860105
 20
-107.3911861247
 10
549.8807532868
 20
-110.7164512414
 10
551.6250663373
 20
-113.9836057433
 10
553.5140888395
 20
-117.1734766685
 10
555.5367352583
 20
-120.2673445863
 10
557.6811359
 20
-123.2470534493
 10
559.9347065691
 20
-126.0951171411
 10
562.2842224169
 20
-128.7948220916
 10
564.71589555
 20
-131.3303253586
 10
567.2154559437
 20
-133.6867476007
 10
569.7682351835
 20
-135.8502603951
 10
572.3592525459
 20
-137.8081673887
 10
574.9733029108
 20
-139.5489788045
 10
577.5950459911
 20
-141.062478869
 10
580.2090963559
 20
-142.3397857619
 10
582.8001137183
 20
-143.3734037387
 10
585.3528929582
 20
-144.1572671179
 10
587.8524533518
 20
-144.6867758775
 10
590.284126485
 20
-144.9588226497
 10
592.6336423327
 20
-144.9718109557
 10
594.8872130018
 20
-144.7256645751
 10
597.0316136436
 20
-144.2218279926
 10
599.0542600623
 20
-143.4632579217
 10
600.9432825645
 20
-142.4544059532
 10
602.6875956151
 20
-141.2011924316
 10
604.2769628914
 20
-139.7109717121
 10
605.7020573542
 20
-137.9924890025
 10
606.9545159827
 20
-136.0558290427
 10
608.0269888516
 20
-133.9123569233
 10
608.9131822636
 20
-131.5746513912
 10
609.6078956834
 20
-129.0564310318
 10
610.1070522564
 20
-126.3724737637
 10
610.4077227333
 20
-123.5385301152
 10
610.5081426604
 20
-120.5712307946
  0
LINE
  5
B1
330
1F
100
AcDbEntity
  8
0
  6
Continuous
 62
     7
370
    25
100
AcDbLine
 10
-212.4508423055
 20
157.9531268149
 30
0.0
 11
-375.9508423055
 21
157.9531268149
 31
0.0
  0
LINE
  5
B2
330
1F
100
AcDbEntity
  8
0
  6
Continuous
 62
     7
370
    25
100
AcDbLine
 10
-48.9508423055
 20
157.9531268149
 30
0.0
 11
-212.4508423055
 21
157.9531268149
 31
0.0
  0
LINE
  5
B3
330
1F
100
AcDbEntity
  8
0
  6
Continuous
 62
     7
370
    25
100
AcDbLine
 10
-212.4508423055
 20
47.9531268149
 30
0.0
 11
-48.9508423055
 21
47.9531268149
 31
0.0
  0
LINE
  5
B4
330
1F
100
AcDbEntity
  8
0
  6
Continuous
 62
     7
370
    25
100
AcDbLine
 10
-375.9508423055
 20
47.9531268149
 30
0.0
 11
-212.4508423055
 21
47.9531268149
 31
0.0
  0
CIRCLE
  5
B5
330
1F
100
AcDbEntity
  8
0
  6
Continuous
 62
     7
370
    25
100
AcDbCircle
 10
-212.4508423055
 20
102.9531268149
 30
0.0
 40
48.39999999999998
  0
CIRCLE
  5
B6
330
1F
100
AcDbEntity
  8
0
  6
Continuous
 62
     7
370
    25
100
AcDbCircle
 10
-212.4508423055
 20
102.9531268149
 30
0.0
 40
54.99999999999997
  0
LINE
  5
B7
330
1F
100
AcDbEntity
  8
0
  6
Continuous
 62
     7
370
    25
100
AcDbLine
 10
-375.9508423055
 20
102.9531268149
 30
0.0
 11
-375.9508423055
 21
157.9531268149
 31
0.0
  0
LINE
  5
B8
330
1F
100
AcDbEntity
  8
0
  6
Continuous
 62
     7
370
    25
100
AcDbLine
 10
-375.9508423055
 20
47.9531268149
 30
0.0
 11
-375.9508423055
 21
102.9531268149
 31
0.0
  0
LINE
  5
B9
330
1F
100
AcDbEntity
  8
0
  6
Continuous
 62
     7
370
    25
100
AcDbLine
 10
-48.9508423055
 20
102.9531268149
 30
0.0
 11
-48.9508423055
 21
157.9531268149
 31
0.0
  0
LINE
  5
BA
330
1F
100
AcDbEntity
  8
0
  6
Continuous
 62
     7
370
    25
100
AcDbLine
 10
-48.9508423055
 20
47.9531268149
 30
0.0
 11
-48.9508423055
 21
102.9531268149
 31
0.0
  0
INSERT
  5
C6
330
1F
100
AcDbEntity
  8
FORMAT
100
AcDbBlockReference
  2
SW_CENTERMARKSYMBOL_1
 10
-212.4508423055
 20
102.9531268149
 30
0.0
  0
LINE
  5
C7
330
1F
100
AcDbEntity
  8
0
  6
Continuous
 62
     7
370
    25
100
AcDbLine
 10
37.8583123737
 20
-42.1963500273
 30
0.0
 11
37.8583123737
 21
-369.1963500273
 31
0.0
  0
LINE
  5
C8
330
1F
100
AcDbEntity
  8
0
  6
Continuous
 62
     7
370
    25
100
AcDbLine
 10
147.8583123737
 20
-150.6963500273
 30
0.0
 11
147.8583123737
 21
-42.1963500273
 31
0.0
  0
LINE
  5
C9
330
1F
100
AcDbEntity
  8
0
  6
Continuous
 62
     7
370
    25
100
AcDbLine
 10
147.8583123737
 20
-369.1963500273
 30
0.0
 11
147.8583123737
 21
-260.6963500273
 31
0.0
  0
LINE
  5
CA
330
1F
100
AcDbEntity
  8
0
  6
Continuous
 62
     7
370
    25
100
AcDbLine
 10
147.8583123737
 20
-260.6963500273
 30
0.0
 11
254.8583123737
 21
-260.6963500273
 31
0.0
  0
LINE
  5
CB
330
1F
100
AcDbEntity
  8
0
  6
Continuous
 62
     7
370
    25
100
AcDbLine
 10
254.8583123737
 20
-150.6963500273
 30
0.0
 11
147.8583123737
 21
-150.6963500273
 31
0.0
  0
LINE
  5
CC
330
1F
100
AcDbEntity
  8
0
  6
Continuous
 62
     7
370
    25
100
AcDbLine
 10
92.8583123737
 20
-205.6963500273
 30
0.0
 11
147.8583123737
 21
-260.6963500273
 31
0.0
  0
LINE
  5
CD
330
1F
100
AcDbEntity
  8
0
  6
Continuous
 62
     7
370
    25
100
AcDbLine
 10
147.8583123737
 20
-150.6963500273
 30
0.0
 11
92.8583123737
 21
-205.6963500273
 31
0.0
  0
LINE
  5
CE
330
1F
100
AcDbEntity
  8
0
  6
Continuous
 62
     7
370
    25
100
AcDbLine
 10
147.8583123737
 20
-369.1963500273
 30
0.0
 11
37.8583123737
 21
-369.1963500273
 31
0.0
  0
LINE
  5
CF
330
1F
100
AcDbEntity
  8
0
  6
Continuous
 62
     7
370
    25
100
AcDbLine
 10
147.8583123737
 20
-42.1963500273
 30
0.0
 11
37.8583123737
 21
-42.1963500273
 31
0.0
  0
LINE
  5
D0
330
1F
100
AcDbEntity
  8
0
  6
Continuous
 62
     7
370
    25
100
AcDbLine
 10
254.8583123737
 20
-150.6963500273
 30
0.0
 11
254.8583123737
 21
-260.6963500273
 31
0.0
  0
ENDSEC
  0
SECTION
  2
OBJECTS
  0
DICTIONARY
  5
C
330
0
100
AcDbDictionary
281
     1
  3
ACAD_GROUP
350
D
  3
ACAD_LAYOUT
350
1A
  3
ACAD_MLINESTYLE
350
17
  3
ACAD_PLOTSETTINGS
350
19
  3
ACAD_PLOTSTYLENAME
350
E
  3
ACAD_SCALELIST
350
47
  3
DWGPROPS
350
D1
  0
DICTIONARY
  5
D
102
{ACAD_REACTORS
330
C
102
}
330
C
100
AcDbDictionary
281
     1
  0
DICTIONARY
  5
1A
102
{ACAD_REACTORS
330
C
102
}
330
C
100
AcDbDictionary
281
     1
  3
Layout1
350
1E
  3
Layout2
350
26
  3
Model
350
22
  0
DICTIONARY
  5
17
102
{ACAD_REACTORS
330
C
102
}
330
C
100
AcDbDictionary
281
     1
  3
Standard
350
18
  0
DICTIONARY
  5
19
102
{ACAD_REACTORS
330
C
102
}
330
C
100
AcDbDictionary
281
     1
  0
ACDBDICTIONARYWDFLT
  5
E
102
{ACAD_REACTORS
330
C
102
}
330
C
100
AcDbDictionary
281
     1
  3
Normal
350
F
100
AcDbDictionaryWithDefault
340
F
  0
DICTIONARY
  5
47
102
{ACAD_REACTORS
330
C
102
}
330
C
100
AcDbDictionary
281
     1
  3
A0
350
48
  3
A1
350
49
  3
A2
350
4A
  3
A3
350
4B
  3
A4
350
4C
  3
A5
350
4D
  3
A6
350
4E
  3
A7
350
4F
  3
A8
350
50
  3
A9
350
51
  3
B0
350
52
  3
B1
350
53
  3
B2
350
54
  3
B3
350
55
  3
B4
350
56
  3
B5
350
57
  3
B6
350
58
  3
B7
350
59
  3
B8
350
5A
  3
B9
350
5B
  3
C0
350
5C
  3
C1
350
5D
  3
C2
350
5E
  3
C3
350
5F
  3
C4
350
60
  3
C5
350
61
  3
C6
350
62
  3
C7
350
63
  3
C8
350
64
  3
C9
350
65
  3
D0
350
66
  3
D1
350
67
  3
D2
350
68
  0
XRECORD
  5
D1
102
{ACAD_REACTORS
330
C
102
}
330
C
100
AcDbXrecord
280
     1
  1
DWGPROPS COOKIE
  2

  3

  4

  6

  7

  8
b.kav
  9

300
=
301
=
302
=
303
=
304
=
305
=
306
=
307
=
308
=
309
=
 40
0.0
 41
2459935.575509468
 42
2459935.575509653
  1

 90
        0
  0
LAYOUT
  5
1E
102
{ACAD_REACTORS
330
1A
102
}
330
1A
100
AcDbPlotSettings
  1

  2
none_device
  4

  6

 40
0.0
 41
0.0
 42
0.0
 43
0.0
 44
0.0
 45
0.0
 46
0.0
 47
0.0
 48
0.0
 49
0.0
140
0.0
141
0.0
142
1.0
143
1.0
 70
   688
 72
     1
 73
     0
 74
     5
  7

 75
    16
147
1.0
148
0.0
149
0.0
100
AcDbLayout
  1
Layout1
 70
     1
 71
     1
 10
0.0
 20
0.0
 11
420.0
 21
297.0
 12
0.0
 22
0.0
 32
0.0
 14
1.0000000000E+20
 24
1.0000000000E+20
 34
1.0000000000E+20
 15
-1.0000000000E+20
 25
-1.0000000000E+20
 35
-1.0000000000E+20
146
0.0
 13
0.0
 23
0.0
 33
0.0
 16
1.0
 26
0.0
 36
0.0
 17
0.0
 27
1.0
 37
0.0
 76
     0
330
1B
  0
LAYOUT
  5
26
102
{ACAD_REACTORS
330
1A
102
}
330
1A
100
AcDbPlotSettings
  1

  2
none_device
  4

  6

 40
0.0
 41
0.0
 42
0.0
 43
0.0
 44
0.0
 45
0.0
 46
0.0
 47
0.0
 48
0.0
 49
0.0
140
0.0
141
0.0
142
1.0
143
1.0
 70
   688
 72
     1
 73
     0
 74
     5
  7

 75
    16
147
1.0
148
0.0
149
0.0
100
AcDbLayout
  1
Layout2
 70
     1
 71
     2
 10
0.0
 20
0.0
 11
0.0
 21
0.0
 12
0.0
 22
0.0
 32
0.0
 14
0.0
 24
0.0
 34
0.0
 15
0.0
 25
0.0
 35
0.0
146
0.0
 13
0.0
 23
0.0
 33
0.0
 16
1.0
 26
0.0
 36
0.0
 17
0.0
 27
1.0
 37
0.0
 76
     0
330
23
  0
LAYOUT
  5
22
102
{ACAD_REACTORS
330
1A
102
}
330
1A
100
AcDbPlotSettings
  1

  2
none_device
  4
Letter_(8.50_x_11.00_Inches)
  6

 40
6.35
 41
6.35
 42
6.35000508
 43
6.35000508
 44
215.9
 45
279.4
 46
0.0
 47
0.0
 48
0.0
 49
0.0
140
0.0
141
0.0
142
1.0
143
1.0
 70
  1712
 72
     1
 73
     0
 74
     0
  7

 75
     0
147
1.0
148
0.0
149
0.0
100
AcDbLayout
  1
Model
 70
     1
 71
     0
 10
0.0
 20
0.0
 11
279.4
 21
215.9
 12
0.0
 22
0.0
 32
0.0
 14
0.0
 24
0.0
 34
0.0
 15
279.4
 25
215.9
 35
0.0
146
0.0
 13
0.0
 23
0.0
 33
0.0
 16
1.0
 26
0.0
 36
0.0
 17
0.0
 27
1.0
 37
0.0
 76
     0
330
1F
331
29
  0
MLINESTYLE
  5
18
102
{ACAD_REACTORS
330
17
102
}
330
17
100
AcDbMlineStyle
  2
Standard
 70
     0
  3

 62
   256
 51
90.0
 52
90.0
 71
     2
 49
0.5
 62
   256
  6
BYLAYER
 49
-0.5
 62
   256
  6
BYLAYER
  0
ACDBPLACEHOLDER
  5
F
102
{ACAD_REACTORS
330
E
102
}
330
E
  0
SCALE
  5
48
102
{ACAD_REACTORS
330
47
102
}
330
47
100
AcDbScale
 70
     0
300
1:1
140
1.0
141
1.0
290
     1
  0
SCALE
  5
49
102
{ACAD_REACTORS
330
47
102
}
330
47
100
AcDbScale
 70
     0
300
1:2
140
1.0
141
2.0
290
     0
  0
SCALE
  5
4A
102
{ACAD_REACTORS
330
47
102
}
330
47
100
AcDbScale
 70
     0
300
1:4
140
1.0
141
4.0
290
     0
  0
SCALE
  5
4B
102
{ACAD_REACTORS
330
47
102
}
330
47
100
AcDbScale
 70
     0
300
1:5
140
1.0
141
5.0
290
     0
  0
SCALE
  5
4C
102
{ACAD_REACTORS
330
47
102
}
330
47
100
AcDbScale
 70
     0
300
1:8
140
1.0
141
8.0
290
     0
  0
SCALE
  5
4D
102
{ACAD_REACTORS
330
47
102
}
330
47
100
AcDbScale
 70
     0
300
1:10
140
1.0
141
10.0
290
     0
  0
SCALE
  5
4E
102
{ACAD_REACTORS
330
47
102
}
330
47
100
AcDbScale
 70
     0
300
1:16
140
1.0
141
16.0
290
     0
  0
SCALE
  5
4F
102
{ACAD_REACTORS
330
47
102
}
330
47
100
AcDbScale
 70
     0
300
1:20
140
1.0
141
20.0
290
     0
  0
SCALE
  5
50
102
{ACAD_REACTORS
330
47
102
}
330
47
100
AcDbScale
 70
     0
300
1:30
140
1.0
141
30.0
290
     0
  0
SCALE
  5
51
102
{ACAD_REACTORS
330
47
102
}
330
47
100
AcDbScale
 70
     0
300
1:40
140
1.0
141
40.0
290
     0
  0
SCALE
  5
52
102
{ACAD_REACTORS
330
47
102
}
330
47
100
AcDbScale
 70
     0
300
1:50
140
1.0
141
50.0
290
     0
  0
SCALE
  5
53
102
{ACAD_REACTORS
330
47
102
}
330
47
100
AcDbScale
 70
     0
300
1:100
140
1.0
141
100.0
290
     0
  0
SCALE
  5
54
102
{ACAD_REACTORS
330
47
102
}
330
47
100
AcDbScale
 70
     0
300
2:1
140
2.0
141
1.0
290
     0
  0
SCALE
  5
55
102
{ACAD_REACTORS
330
47
102
}
330
47
100
AcDbScale
 70
     0
300
4:1
140
4.0
141
1.0
290
     0
  0
SCALE
  5
56
102
{ACAD_REACTORS
330
47
102
}
330
47
100
AcDbScale
 70
     0
300
8:1
140
8.0
141
1.0
290
     0
  0
SCALE
  5
57
102
{ACAD_REACTORS
330
47
102
}
330
47
100
AcDbScale
 70
     0
300
10:1
140
10.0
141
1.0
290
     0
  0
SCALE
  5
58
102
{ACAD_REACTORS
330
47
102
}
330
47
100
AcDbScale
 70
     0
300
100:1
140
100.0
141
1.0
290
     0
  0
SCALE
  5
59
102
{ACAD_REACTORS
330
47
102
}
330
47
100
AcDbScale
 70
     0
300
1/128" = 1'-0"
140
0.0078125
141
12.0
290
     0
  0
SCALE
  5
5A
102
{ACAD_REACTORS
330
47
102
}
330
47
100
AcDbScale
 70
     0
300
1/64" = 1'-0"
140
0.015625
141
12.0
290
     0
  0
SCALE
  5
5B
102
{ACAD_REACTORS
330
47
102
}
330
47
100
AcDbScale
 70
     0
300
1/32" = 1'-0"
140
0.03125
141
12.0
290
     0
  0
SCALE
  5
5C
102
{ACAD_REACTORS
330
47
102
}
330
47
100
AcDbScale
 70
     0
300
1/16" = 1'-0"
140
0.0625
141
12.0
290
     0
  0
SCALE
  5
5D
102
{ACAD_REACTORS
330
47
102
}
330
47
100
AcDbScale
 70
     0
300
3/32" = 1'-0"
140
0.09375
141
12.0
290
     0
  0
SCALE
  5
5E
102
{ACAD_REACTORS
330
47
102
}
330
47
100
AcDbScale
 70
     0
300
1/8" = 1'-0"
140
0.125
141
12.0
290
     0
  0
SCALE
  5
5F
102
{ACAD_REACTORS
330
47
102
}
330
47
100
AcDbScale
 70
     0
300
3/16" = 1'-0"
140
0.1875
141
12.0
290
     0
  0
SCALE
  5
60
102
{ACAD_REACTORS
330
47
102
}
330
47
100
AcDbScale
 70
     0
300
1/4" = 1'-0"
140
0.25
141
12.0
290
     0
  0
SCALE
  5
61
102
{ACAD_REACTORS
330
47
102
}
330
47
100
AcDbScale
 70
     0
300
3/8" = 1'-0"
140
0.375
141
12.0
290
     0
  0
SCALE
  5
62
102
{ACAD_REACTORS
330
47
102
}
330
47
100
AcDbScale
 70
     0
300
1/2" = 1'-0"
140
0.5
141
12.0
290
     0
  0
SCALE
  5
63
102
{ACAD_REACTORS
330
47
102
}
330
47
100
AcDbScale
 70
     0
300
3/4" = 1'-0"
140
0.75
141
12.0
290
     0
  0
SCALE
  5
64
102
{ACAD_REACTORS
330
47
102
}
330
47
100
AcDbScale
 70
     0
300
1" = 1'-0"
140
1.0
141
12.0
290
     0
  0
SCALE
  5
65
102
{ACAD_REACTORS
330
47
102
}
330
47
100
AcDbScale
 70
     0
300
1-1/2" = 1'-0"
140
1.5
141
12.0
290
     0
  0
SCALE
  5
66
102
{ACAD_REACTORS
330
47
102
}
330
47
100
AcDbScale
 70
     0
300
3" = 1'-0"
140
3.0
141
12.0
290
     0
  0
SCALE
  5
67
102
{ACAD_REACTORS
330
47
102
}
330
47
100
AcDbScale
 70
     0
300
6" = 1'-0"
140
6.0
141
12.0
290
     0
  0
SCALE
  5
68
102
{ACAD_REACTORS
330
47
102
}
330
47
100
AcDbScale
 70
     0
300
1'-0" = 1'-0"
140
12.0
141
12.0
290
     0
  0
ENDSEC
  0
EOF
